Tabz.dk - Den danske side med guitartabs

Skriv? Login her
   


Besked
Emne Søger akkorder til Kim Larsens "Sommeren er gået"
Af sørenstryhn
Skrevet den 05-30-16 12:44 pm
Message:


posts:2
Hej med jer, jeg håber at, der er nogen der kan hjælpe med akkorderne til "Sommeren er gået" med Kim Larsen og Kjukken.
Vh Søren

1  
Replies
Subject: Re:Søger akkorder til Kim Larsens \ sommeren er gået
Af minizigzag
Skrevet d. 06-19-16 4:14 pm
Besked


posts:1
starter i G-C

Sommeren er gået...
vers. G-Em-Am-D

Nu skal vi gå...
Omkvæd. G-C

B-stykket er lidt sværere at forklare og Måske ikke rigtige.
Kim synger:
Ingen ved om vi
E|-----------3--
B|--------3-----
G|--------------
D|--------------
A|-----2--------
E|--3-----------
Kommer tilbage
E|-----------3--
B|--------3-----
G|--------------
D|--------------
A|-----2--------
E|--3-----------
eller hvor vi skal
E|--------3--
B|-----3-----
G|-----------
D|-----------
A|-----------
E|--1--------
hen
E|-----------3--
B|--------3-----
G|--------------
D|-----2--------
A|--2-----------
E|--------------

Cm G
Men måske de lange sommerdage
A D
vil bringe os sammen igen


Håber det hjalp dig lidt. :-)
Vh Martin.
1  




© Copyright 2015 Tabz.dk. All rights reserved.
Tabz.dk - Den danske side med guitartabs